Baby Learns To Crawl

BABY LEARNS TO CRAWL

Tuning: D#, G#, C, D#, G#, C (from low to high)

capo 4th fret

……………Baby learns to crawl

------3-------------------|-3-------3--3-3-3--3-3-3-|-3--3-3-3--3-3--3-3-3-|
------0-------------------|-0-------0--0-0-0--0-0-0-|-0--0-0-0--0-0--0-0-0-|
------2-------------------|-0-h-2- -0--0-0-0--0-0-0-|-0--0-0-0--0-0--0-0-0-|
------1-------------------|-1-------1--1-1-1--1-1-1-|-1--1-1-1--1-1--1-1-1-|
--------------------------|-0-------0--0-0-0--0-0-0-|-2--2-2-2--2-2--2-2-2-|
-------------------------|--------------------------|-3--3-3-3--3-3--3-3-3-|

||--3--3--3-3-3--3-3-3-3--|-3--3-3-3--3-3--3-3-3-||
||--0--0--0-0-0--0-0-0-0--|-0--0-0-0--0-0--0-0-0-||
||--2--0--0-0-0--0-2-0-0--|-0--0-0-0--0-0--0-0-0-||…[repeat 2x]
||--1--1--1-1-1--1-1-1-1--|-1--1-1-1--1-1--1-1-1-||
||--0--0--0-0-0--0-0-0-0--|-2--2-2-2--2-2--2-2-2-||
||------------------ --- -|-3--3-3-3--3-3--3-3-3-||

in the mirror

------3--3--3-3-3--3-3-3-|-3--3--3-3-3--3-3-3-3-|
------0--0--0-0-0--0-0-0-|-0--0--0-0-0--0-0-0-0-|
------0--0--0-0-0--0-0-0-|-0--0--0-0-0--0-0-0-0-|
------0--0--0-0-0--0-0-0-|-1--1--1-1-1--1-1-1-1-|
------0--0--0-0-0--0-0-0-|-2--2--2-2-2--2-2-2-2-|
-------------------------|-3--3--3-3-3--3-3-3-3-|

One last crushing…

----3-----------3-3-3-3-|-3--------3---3-3-3-3-||
----0-----------0-0-0-0-|-0--------0---0-0-0-0-||
----0-----------0-0-0-0-|-0--------0---0-0-0-0-||… [repeat 3 x]
----3-----------3-3-3-3-|-1--------1---1-1-1-1-||
----0-----------0-0-0-0-|-2--------2---2-2-2-2-||
------------------------|-3--------3---3-3-3-3-||

(just before the guitar solo)

-3--3--0-0-3--3--3-0-0-3--3--3---------------|
-0--0--0-0-4--4--4-0-0-2--2--2- -2-5-4-2-0---|
-0--0--0-0-3--3- 3-0-0-3--3--3-3---3-3-3-0---|
-3--3------3--3--3-----0--0--0-0---0-0-0-0- -|
---------------------------------------------|
---------------------------------------------|

guitar solo (positions relative to capo) [<] = slide [~] = hamer-on

----------------------1-|--3-----3-- - -|---- --- -- --|-----------------------------------|
----------0-------------|--1~2--1~2-----|-----------0--|-----------------------------------|
--0-1<2--------1<2------|---------------|--0-1>2- --- -|-3-3-3-3-3-3-3-3-2<3>2--0-0--------|
-------------- ---------|---- -- - -----|------- -- ---|-------------------------------1-1-|
----------- ------------|--- -- --- ----|----- --- ----|------------------- ---- ----------|
------------ -----------|---- -- -------|---- --- -----|------------------ --------- ------|

-------1------1------|-3----3- - --1-3---|-6-6-6-6-6-6-6-6-5-3-3---|-6-6-6-6-6-6-6-6-5-----|
------ --------- ----|-1~2-1~2---2-2-----|-5-5-5-5-5-5-5-5-5-5-5---|-5-5-5-5-5-5-5-5-5-----|
-1<2----1<2----0-----|-- -- --- -- - ----|------- ------ - --------|------- --- -----------|
-------- --- --------|-- --- -- -- --- --|- --- ----------- -------|---- ------- ----------|
----- ----- ---------|- --- ---- -- - ---|-- ---------- ---- ------|-------- ------- ------|
---- ----- ----------|--- -- -- - -- ----|--- ---- -------------- -|-- ----------------- --|

Once again the G# Tuning, this time with a capo on the 4th fret. Some of the chord shapes in this song can also be found in “Eyes Like Sparks” and “As Far as I Know,” yet all these songs sound completely different, which shows you the mileage that PW gets with a little creativity. For the most part, chords are shown in full, though Paul doesn’t always hit all notes of any given chord. A little listening to the track should give you a good feel for the rhythm and accents in the song. This is a good one to start with if you’re new to this tuning.

GtrPlyr

(Visited 16 times, 1 visits today)

Leave A Comment

Your email address will not be published. Required fields are marked *