Born For Me

BORN FOR ME

Open G tuning (low to high) D, G, D, G, B, D

Intro/Verse [ (p)= pull-off ]

D---5-5---5---5---5----5-5---5-5-5---5-5---5-5---5-5--------5-5-5---0-0-0--
B---5-5---3---3---3----6-6---3-3-3---5-5---3-3---6-6-(p)-5--5-5-5---0-0-0--
G---5-5---4---4---4----5-5---4-4-4---5-5---4-4---5-5--------5-5-5---0-0-0--
D---5-5---5---5---5----7-7---5-5-5---5-5---5-5---7-7--------7-7-7---0-0-0--
G---5-5---0---0---0----5-5---0-0-0---5-5---0-0---5-5--------5-5-5----------
D--------------------------------------------------------------------------

Chorus (here’s the basic chords during the chorus.)

You were born…

D---3---2---3---5---3---5---3---0---
B---1---0---1---3---1---3---1---0---
G---2---0---2---4---2---4---2---0---
D---3---2---3---5---3---5---3---0---
G-----------------------------------
D-----------------------------------

Here’s the bridge part:

I can't bear it………………………………….....…………………. piano solo

D---0-----2-----3-----2-----0-----2-----3------|--5--
B---1-----1-----1-----1-----1-----0-----1------|--5--
G---2-----0-----2-----0-----2-----0-----2------|--5--
D---3-----2-----3-----2-----3-----2-----3------|--5--
G---------0-----------0-----------0------------|--5--
D----------------------------------------------|-----

GtrPlyr 
(Visited 98 times, 1 visits today)

Leave A Comment

Your email address will not be published. Required fields are marked *