Here Comes A Regular

HERE COMES A REGULAR

Tuning (low to high) E A D G B E

Capo at the 6th fret (12-string guitar)

Intro/verse (pattern is slightly altered during the verses)

(F#, C#, Bsus2)

-9---9---9-9-9---9---9-9-9-9----9---9---9-9-9-9---9-9-|
-7---7---6-7-7---6---6-6-7-6----7---7---7-7-7-7---7-7-|
-6---6---6-6-6---6---6-6-6-6----6---6---6-6-6-6---6-6-|
--------------------------------9---9---9-9-9-9---9-9-|
------------------------------------------------------|
------------------------------------------------------|

Pre-Chorus

(C#, Bsus2, C#, C#7)

and everybody wants to be...

-9-9-9-9-9-9-9-9----9-9-9-9-9-9-9-9----9-9-9-9-9-9-9-9-----7-7-7-7-7-7-7-7-|
-6-6-6-6-6-6-6-6----7-7-7-7-7-7-7-7----6-6-6-6-6-6-6-6-----6-6-6-6-6-6-6-6-|
-6-6-6-6-6-6-6-6----6-6-6-6-6-6-6-6----6-6-6-6-6-6-6-6-----6-6-6-6-6-6-6-6-|
-6-6-6-6-6-6-6-6----9-9-9-9-9-9-9-9----6-6-6-6-6-6-6-6-----6-6-6-6-6-6-6-6-|
---------------------------------------------------------------------------|
---------------------------------------------------------------------------|

Chorus:

(F#sus2, A#m, Bsus2, C#, Bsus2)

Here comes a regular….............……|...am I the only one

-9-----------9----------9--------|-----9---------9-
-7-----------6----------7--------|-----6---------7-
-6-----------6----------6--------|-----6---------6-
-6-----------8----------9--------|-----6---------9-
-9-------------------------------|-----------------
---------------------------------|-----------------

I think this basically covers all the main parts of the song.

GtrPlyr 

(Visited 19 times, 1 visits today)

Leave A Comment

Your email address will not be published. Required fields are marked *