Left Of The Dial

LEFT OF THE DIAL

Tuning = (low to high) D G D G B D

-0-------0---0--------0--------0---0----
-8-------8---7--------0--------0---7----
-7-------7---7--------7--------7---7--------- }x 2
-0---0---0---0---0----0---0----0---0---0
-------------------------------------------
-------------------------------------------

--------------------------------------------
8--------8-------7---0-------0--------7-
7--------7-------7---7-------7--------7-
5---5----5---5---5---5---5---5---5---5---
5---5----5---5---5---5---5---5---5---5-
--------------------------------------------

------------------------------------------
------------------------------------------
-2---2---2---2---2---2---2---2---2---
-2---2---2---2---2---2---2---2---2---
-2---2---2---2---2---2---2---2---2---
-----------------------------------------

chords used during verses etc.
--------------------------| ------------------------------
-8----------8------------| ------------------------------
-7----------7---- } x 2-| -----5-----------------------
-0----------X-----------| -----5-------------------------
------------9----------- | ----5---------4--------------
------------------------ | ---------------2-------------

chorus chords (these are the basic elements)
etc………………
-----------------------------------------------------------
----------------------------------------------3--------
-5----5----5---5-----------------------------2-------
-5----5----5---5-------------2---------------0--------
-5----5 ---5---5-------------0---2---0--------------
--------------------------------------------------------

chords just before instrumental break — G5 Em

chords during solo:

F#5 G5 A5 B5 } repeat a bunch o’ times

GtrPlyr 

(Visited 117 times, 1 visits today)

Leave A Comment

Your email address will not be published. Required fields are marked *